ISO-10303-21;
HEADER;
FILE_DESCRIPTION (( 'STEP AP203' ),
    '1' );
FILE_NAME ('Q-OZHWP-R2-20-355-M.STEP',
    '2020-12-22T09:16:20',
    ( '' ),
    ( '' ),
    'SwSTEP 2.0',
    'SolidWorks 2020',
    '' );
FILE_SCHEMA (( 'CONFIG_CONTROL_DESIGN' ));
ENDSEC;

DATA;
#1 = ORIENTED_EDGE ( 'NONE', *, *, #147, .F. ) ;
#2 = APPROVAL_STATUS ( 'not_yet_approved' ) ;
#3 = VERTEX_POINT ( 'NONE', #126 ) ;
#4 = CARTESIAN_POINT ( 'NONE',  ( -1.614212418857619014, 1.224646799147353256E-15, -10.00000000000000000 ) ) ;
#5 = PERSON_AND_ORGANIZATION_ROLE ( 'design_supplier' ) ;
#6 = ORIENTED_EDGE ( 'NONE', *, *, #40, .T. ) ;
#7 = VECTOR ( 'NONE', #72, 1000.000000000000000 ) ;
#8 = EDGE_CURVE ( 'NONE', #20, #238, #229, .T. ) ;
#9 = CARTESIAN_POINT ( 'NONE',  ( 2.500000000000000444, 10.00000000000000000, 0.000000000000000000 ) ) ;
#10 = DIRECTION ( 'NONE',  ( 0.000000000000000000, 0.000000000000000000, 1.000000000000000000 ) ) ;
#11 = LINE ( 'NONE', #191, #135 ) ;
#12 = PERSON ( 'UNSPECIFIED', 'UNSPECIFIED', 'UNSPECIFIED', ('UNSPECIFIED'), ('UNSPECIFIED'), ('UNSPECIFIED') ) ;
#13 = PLANE ( 'NONE',  #219 ) ;
#14 = CIRCLE ( 'NONE', #125, 12.69999999999999929 ) ;
#15 = DIRECTION ( 'NONE',  ( -1.000000000000000000, 0.000000000000000000, -0.000000000000000000 ) ) ;
#16 = AXIS2_PLACEMENT_3D ( 'NONE', #233, #101, #309 ) ;
#17 = DIRECTION ( 'NONE',  ( 0.000000000000000000, 0.000000000000000000, 1.000000000000000000 ) ) ;
#18 = CARTESIAN_POINT ( 'NONE',  ( -3.000000000000000000, 0.000000000000000000, 12.69999999999999929 ) ) ;
#19 = FACE_OUTER_BOUND ( 'NONE', #234, .T. ) ;
#20 = VERTEX_POINT ( 'NONE', #304 ) ;
#21 = EDGE_CURVE ( 'NONE', #221, #183, #67, .T. ) ;
#22 = PERSON_AND_ORGANIZATION_ROLE ( 'classification_officer' ) ;
#23 = LINE ( 'NONE', #128, #236 ) ;
#24 = CARTESIAN_POINT ( 'NONE',  ( -1.614212418857619014, 1.555301434917138433E-15, -12.69999999999999929 ) ) ;
#25 = CC_DESIGN_PERSON_AND_ORGANIZATION_ASSIGNMENT ( #49, #160, ( #297 ) ) ;
#26 = ORIENTED_EDGE ( 'NONE', *, *, #33, .F. ) ;
#27 = CARTESIAN_POINT ( 'NONE',  ( -3.000000000000000444, 0.000000000000000000, 0.000000000000000000 ) ) ;
#28 =( NAMED_UNIT ( * ) SI_UNIT ( $, .STERADIAN. ) SOLID_ANGLE_UNIT ( ) );
#29 = VERTEX_POINT ( 'NONE', #34 ) ;
#30 = DIRECTION ( 'NONE',  ( -1.000000000000000000, -0.000000000000000000, -0.000000000000000000 ) ) ;
#31 = CARTESIAN_POINT ( 'NONE',  ( -1.614212418857619014, 0.000000000000000000, 0.000000000000000000 ) ) ;
#32 = COORDINATED_UNIVERSAL_TIME_OFFSET ( 8, 0, .AHEAD. ) ;
#33 = EDGE_CURVE ( 'NONE', #3, #80, #56, .T. ) ;
#34 = CARTESIAN_POINT ( 'NONE',  ( 2.500000000000000888, 0.000000000000000000, 10.00000000000000000 ) ) ;
#35 = DIRECTION ( 'NONE',  ( 0.000000000000000000, 0.000000000000000000, 1.000000000000000000 ) ) ;
#36 = AXIS2_PLACEMENT_3D ( 'NONE', #326, #203, #301 ) ;
#37 = CC_DESIGN_PERSON_AND_ORGANIZATION_ASSIGNMENT ( #181, #282, ( #202 ) ) ;
#38 = CARTESIAN_POINT ( 'NONE',  ( -3.000000000000000444, 0.000000000000000000, 10.00000000000000000 ) ) ;
#39 = DIRECTION ( 'NONE',  ( 0.000000000000000000, 0.000000000000000000, 1.000000000000000000 ) ) ;
#40 = EDGE_CURVE ( 'NONE', #47, #132, #79, .T. ) ;
#41 = ORIENTED_EDGE ( 'NONE', *, *, #226, .F. ) ;
#42 = PERSON_AND_ORGANIZATION ( #12, #299 ) ;
#43 = VECTOR ( 'NONE', #30, 1000.000000000000000 ) ;
#44 = AXIS2_PLACEMENT_3D ( 'NONE', #58, #270, #35 ) ;
#45 = CARTESIAN_POINT ( 'NONE',  ( -1.614212418857619014, 0.000000000000000000, 0.000000000000000000 ) ) ;
#46 = ORIENTED_EDGE ( 'NONE', *, *, #335, .T. ) ;
#47 = VERTEX_POINT ( 'NONE', #143 ) ;
#48 = CARTESIAN_POINT ( 'NONE',  ( -2.500000000000000444, 10.00000000000000000, 0.000000000000000000 ) ) ;
#49 = PERSON_AND_ORGANIZATION ( #12, #299 ) ;
#50 = AXIS2_PLACEMENT_3D ( 'NONE', #328, #225, #92 ) ;
#51 = EDGE_LOOP ( 'NONE', ( #333, #253, #314, #100 ) ) ;
#52 = ORIENTED_EDGE ( 'NONE', *, *, #89, .T. ) ;
#53 = DIRECTION ( 'NONE',  ( 0.000000000000000000, 0.000000000000000000, 1.000000000000000000 ) ) ;
#54 = ADVANCED_FACE ( 'NONE', ( #319 ), #243, .F. ) ;
#55 = AXIS2_PLACEMENT_3D ( 'NONE', #175, #75, #261 ) ;
#56 = CIRCLE ( 'NONE', #94, 10.00000000000000000 ) ;
#57 = CYLINDRICAL_SURFACE ( 'NONE', #194, 10.00000000000000000 ) ;
#58 = CARTESIAN_POINT ( 'NONE',  ( -1.614212418857619014, 0.000000000000000000, 0.000000000000000000 ) ) ;
#59 = AXIS2_PLACEMENT_3D ( 'NONE', #64, #95, #124 ) ;
#60 = APPROVAL_PERSON_ORGANIZATION ( #303, #87, #155 ) ;
#61 = DIRECTION ( 'NONE',  ( 0.000000000000000000, 0.000000000000000000, 1.000000000000000000 ) ) ;
#62 = AXIS2_PLACEMENT_3D ( 'NONE', #31, #244, #10 ) ;
#63 = CARTESIAN_POINT ( 'NONE',  ( -1.614212418857619014, 0.000000000000000000, 0.000000000000000000 ) ) ;
#64 = CARTESIAN_POINT ( 'NONE',  ( 2.999999999999999112, 0.000000000000000000, 0.000000000000000000 ) ) ;
#65 = PLANE ( 'NONE',  #50 ) ;
#66 = DIRECTION ( 'NONE',  ( -1.000000000000000000, -0.000000000000000000, -0.000000000000000000 ) ) ;
#67 = LINE ( 'NONE', #24, #248 ) ;
#68 = DATE_TIME_ROLE ( 'classification_date' ) ;
#69 = VERTEX_POINT ( 'NONE', #86 ) ;
#70 = DATE_AND_TIME ( #231, #209 ) ;
#71 = ORIENTED_EDGE ( 'NONE', *, *, #21, .T. ) ;
#72 = DIRECTION ( 'NONE',  ( -1.000000000000000000, -0.000000000000000000, -0.000000000000000000 ) ) ;
#73 = ORIENTED_EDGE ( 'NONE', *, *, #140, .T. ) ;
#74 = EDGE_LOOP ( 'NONE', ( #134, #84 ) ) ;
#75 = DIRECTION ( 'NONE',  ( -1.000000000000000000, -0.000000000000000000, -0.000000000000000000 ) ) ;
#76 = DATE_TIME_ROLE ( 'creation_date' ) ;
#77 = AXIS2_PLACEMENT_3D ( 'NONE', #177, #123, #39 ) ;
#78 = LOCAL_TIME ( 17, 16, 20.00000000000000000, #127 ) ;
#79 = CIRCLE ( 'NONE', #316, 10.00000000000000000 ) ;
#80 = VERTEX_POINT ( 'NONE', #294 ) ;
#81 = MANIFOLD_SOLID_BREP ( 'Ðý×', #167 ) ;
#82 = CC_DESIGN_PERSON_AND_ORGANIZATION_ASSIGNMENT ( #241, #5, ( #297 ) ) ;
#83 = CYLINDRICAL_SURFACE ( 'NONE', #62, 10.00000000000000000 ) ;
#84 = ORIENTED_EDGE ( 'NONE', *, *, #40, .F. ) ;
#85 = DESIGN_CONTEXT ( 'detailed design', #182, 'design' ) ;
#86 = CARTESIAN_POINT ( 'NONE',  ( 2.500000000000000888, 1.224646799147353256E-15, -10.00000000000000000 ) ) ;
#87 = APPROVAL ( #133, 'UNSPECIFIED' ) ;
#88 = DIRECTION ( 'NONE',  ( -1.000000000000000000, -0.000000000000000000, -0.000000000000000000 ) ) ;
#89 = EDGE_CURVE ( 'NONE', #239, #193, #11, .T. ) ;
#90 = ADVANCED_FACE ( 'NONE', ( #292 ), #57, .F. ) ;
#91 = EDGE_CURVE ( 'NONE', #238, #20, #250, .T. ) ;
#92 = DIRECTION ( 'NONE',  ( 0.000000000000000000, 0.000000000000000000, -1.000000000000000000 ) ) ;
#93 = AXIS2_PLACEMENT_3D ( 'NONE', #63, #176, #272 ) ;
#94 = AXIS2_PLACEMENT_3D ( 'NONE', #116, #141, #145 ) ;
#95 = DIRECTION ( 'NONE',  ( -1.000000000000000000, -0.000000000000000000, -0.000000000000000000 ) ) ;
#96 = MECHANICAL_CONTEXT ( 'NONE', #104, 'mechanical' ) ;
#97 = ORIENTED_EDGE ( 'NONE', *, *, #296, .T. ) ;
#98 = APPLICATION_PROTOCOL_DEFINITION ( 'international standard', 'config_control_design', 1994, #182 ) ;
#99 = ADVANCED_FACE ( 'NONE', ( #269, #247 ), #13, .F. ) ;
#100 = ORIENTED_EDGE ( 'NONE', *, *, #289, .T. ) ;
#101 = DIRECTION ( 'NONE',  ( 0.000000000000000000, 0.000000000000000000, 1.000000000000000000 ) ) ;
#102 = EDGE_CURVE ( 'NONE', #20, #132, #222, .T. ) ;
#103 = AXIS2_PLACEMENT_3D ( 'NONE', #287, #308, #53 ) ;
#104 = APPLICATION_CONTEXT ( 'configuration controlled 3d designs of mechanical parts and assemblies' ) ;
#105 = ORIENTED_EDGE ( 'NONE', *, *, #91, .F. ) ;
#106 = CARTESIAN_POINT ( 'NONE',  ( 3.000000000000000000, 0.000000000000000000, 0.000000000000000000 ) ) ;
#107 = APPROVAL_DATE_TIME ( #70, #87 ) ;
#108 = EDGE_LOOP ( 'NONE', ( #137, #187 ) ) ;
#109 = ORIENTED_EDGE ( 'NONE', *, *, #321, .T. ) ;
#110 = CARTESIAN_POINT ( 'NONE',  ( -2.500000000000000444, 1.224646799147353256E-15, -10.00000000000000000 ) ) ;
#111 = COORDINATED_UNIVERSAL_TIME_OFFSET ( 8, 0, .AHEAD. ) ;
#112 = SHAPE_DEFINITION_REPRESENTATION ( #283, #149 ) ;
#113 = AXIS2_PLACEMENT_3D ( 'NONE', #106, #284, #212 ) ;
#114 = CARTESIAN_POINT ( 'NONE',  ( -1.614212418857619014, 0.000000000000000000, 0.000000000000000000 ) ) ;
#115 = CALENDAR_DATE ( 2020, 22, 12 ) ;
#116 = CARTESIAN_POINT ( 'NONE',  ( 2.999999999999999112, 0.000000000000000000, 0.000000000000000000 ) ) ;
#117 = ADVANCED_FACE ( 'NONE', ( #267 ), #295, .T. ) ;
#118 = DIRECTION ( 'NONE',  ( -1.000000000000000000, -0.000000000000000000, -0.000000000000000000 ) ) ;
#119 = DIRECTION ( 'NONE',  ( -0.000000000000000000, 0.000000000000000000, 1.000000000000000000 ) ) ;
#120 = DIRECTION ( 'NONE',  ( 0.000000000000000000, 0.000000000000000000, 1.000000000000000000 ) ) ;
#121 = LOCAL_TIME ( 17, 16, 20.00000000000000000, #32 ) ;
#122 = DIRECTION ( 'NONE',  ( 0.000000000000000000, 0.000000000000000000, 1.000000000000000000 ) ) ;
#123 = DIRECTION ( 'NONE',  ( -1.000000000000000000, -0.000000000000000000, -0.000000000000000000 ) ) ;
#124 = DIRECTION ( 'NONE',  ( 0.000000000000000000, 0.000000000000000000, 1.000000000000000000 ) ) ;
#125 = AXIS2_PLACEMENT_3D ( 'NONE', #325, #252, #17 ) ;
#126 = CARTESIAN_POINT ( 'NONE',  ( 2.999999999999999112, 0.000000000000000000, 10.00000000000000000 ) ) ;
#127 = COORDINATED_UNIVERSAL_TIME_OFFSET ( 8, 0, .AHEAD. ) ;
#128 = CARTESIAN_POINT ( 'NONE',  ( -1.614212418857619014, 0.000000000000000000, 10.00000000000000000 ) ) ;
#129 = DIRECTION ( 'NONE',  ( -1.000000000000000000, -0.000000000000000000, -0.000000000000000000 ) ) ;
#130 = ADVANCED_FACE ( 'NONE', ( #317 ), #83, .F. ) ;
#131 = COORDINATED_UNIVERSAL_TIME_OFFSET ( 8, 0, .AHEAD. ) ;
#132 = VERTEX_POINT ( 'NONE', #38 ) ;
#133 = APPROVAL_STATUS ( 'not_yet_approved' ) ;
#134 = ORIENTED_EDGE ( 'NONE', *, *, #289, .F. ) ;
#135 = VECTOR ( 'NONE', #118, 1000.000000000000000 ) ;
#136 = DIRECTION ( 'NONE',  ( 0.000000000000000000, 0.000000000000000000, 1.000000000000000000 ) ) ;
#137 = ORIENTED_EDGE ( 'NONE', *, *, #335, .F. ) ;
#138 = LINE ( 'NONE', #215, #7 ) ;
#139 = LOCAL_TIME ( 17, 16, 20.00000000000000000, #131 ) ;
#140 = EDGE_CURVE ( 'NONE', #69, #29, #162, .T. ) ;
#141 = DIRECTION ( 'NONE',  ( -1.000000000000000000, -0.000000000000000000, -0.000000000000000000 ) ) ;
#142 = PRODUCT_DEFINITION ( 'UNKNOWN', '', #297, #85 ) ;
#143 = CARTESIAN_POINT ( 'NONE',  ( -3.000000000000000444, 1.224646799147353256E-15, -10.00000000000000000 ) ) ;
#144 = LOCAL_TIME ( 17, 16, 20.00000000000000000, #216 ) ;
#145 = DIRECTION ( 'NONE',  ( 0.000000000000000000, 0.000000000000000000, 1.000000000000000000 ) ) ;
#146 = EDGE_CURVE ( 'NONE', #183, #193, #14, .T. ) ;
#147 = EDGE_CURVE ( 'NONE', #80, #3, #200, .T. ) ;
#148 = FACE_BOUND ( 'NONE', #74, .T. ) ;
#149 = ADVANCED_BREP_SHAPE_REPRESENTATION ( 'Q-OZHWP-R2-20-355-M', ( #81, #16 ), #165 ) ;
#150 = CARTESIAN_POINT ( 'NONE',  ( -3.000000000000000000, 1.555301434917138433E-15, -12.69999999999999929 ) ) ;
#151 = ADVANCED_FACE ( 'NONE', ( #148, #273 ), #65, .F. ) ;
#152 = ORIENTED_EDGE ( 'NONE', *, *, #251, .F. ) ;
#153 =( NAMED_UNIT ( * ) PLANE_ANGLE_UNIT ( ) SI_UNIT ( $, .RADIAN. ) );
#154 = ORIENTED_EDGE ( 'NONE', *, *, #8, .T. ) ;
#155 = APPROVAL_ROLE ( '' ) ;
#156 = EDGE_LOOP ( 'NONE', ( #277, #71, #41, #311 ) ) ;
#157 = CALENDAR_DATE ( 2020, 22, 12 ) ;
#158 = ORIENTED_EDGE ( 'NONE', *, *, #146, .T. ) ;
#159 = DIRECTION ( 'NONE',  ( 1.000000000000000000, 0.000000000000000000, 0.000000000000000000 ) ) ;
#160 = PERSON_AND_ORGANIZATION_ROLE ( 'creator' ) ;
#161 = EDGE_LOOP ( 'NONE', ( #1, #97, #73, #263 ) ) ;
#162 = CIRCLE ( 'NONE', #77, 10.00000000000000000 ) ;
#163 = PLANE ( 'NONE',  #173 ) ;
#164 = CARTESIAN_POINT ( 'NONE',  ( -3.000000000000000444, 0.000000000000000000, 0.000000000000000000 ) ) ;
#165 =( GEOMETRIC_REPRESENTATION_CONTEXT ( 3 ) GLOBAL_UNCERTAINTY_ASSIGNED_CONTEXT ( ( #170 ) ) GLOBAL_UNIT_ASSIGNED_CONTEXT ( ( #279, #153, #28 ) ) REPRESENTATION_CONTEXT ( 'NONE', 'WORKASPACE' ) );
#166 = DATE_AND_TIME ( #115, #121 ) ;
#167 = CLOSED_SHELL ( 'NONE', ( #329, #298, #90, #54, #130, #223, #151, #117, #99, #276 ) ) ;
#168 = DIRECTION ( 'NONE',  ( 0.000000000000000000, 0.000000000000000000, -1.000000000000000000 ) ) ;
#169 = DIRECTION ( 'NONE',  ( -1.000000000000000000, -0.000000000000000000, -0.000000000000000000 ) ) ;
#170 = UNCERTAINTY_MEASURE_WITH_UNIT (LENGTH_MEASURE( 1.000000000000000082E-05 ), #279, 'distance_accuracy_value', 'NONE');
#171 = DIRECTION ( 'NONE',  ( 1.000000000000000000, 0.000000000000000000, 0.000000000000000000 ) ) ;
#172 = CC_DESIGN_DATE_AND_TIME_ASSIGNMENT ( #207, #68, ( #268 ) ) ;
#173 = AXIS2_PLACEMENT_3D ( 'NONE', #48, #159, #242 ) ;
#174 = AXIS2_PLACEMENT_3D ( 'NONE', #9, #15, #245 ) ;
#175 = CARTESIAN_POINT ( 'NONE',  ( -3.000000000000000000, 0.000000000000000000, 0.000000000000000000 ) ) ;
#176 = DIRECTION ( 'NONE',  ( -1.000000000000000000, -0.000000000000000000, -0.000000000000000000 ) ) ;
#177 = CARTESIAN_POINT ( 'NONE',  ( 2.500000000000000888, 0.000000000000000000, 0.000000000000000000 ) ) ;
#178 = ORIENTED_EDGE ( 'NONE', *, *, #265, .T. ) ;
#179 = CALENDAR_DATE ( 2020, 22, 12 ) ;
#180 = ORIENTED_EDGE ( 'NONE', *, *, #33, .T. ) ;
#181 = PERSON_AND_ORGANIZATION ( #12, #299 ) ;
#182 = APPLICATION_CONTEXT ( 'configuration controlled 3d designs of mechanical parts and assemblies' ) ;
#183 = VERTEX_POINT ( 'NONE', #150 ) ;
#184 = ORIENTED_EDGE ( 'NONE', *, *, #265, .F. ) ;
#185 = FACE_OUTER_BOUND ( 'NONE', #286, .T. ) ;
#186 = ORIENTED_EDGE ( 'NONE', *, *, #147, .T. ) ;
#187 = ORIENTED_EDGE ( 'NONE', *, *, #140, .F. ) ;
#188 = CARTESIAN_POINT ( 'NONE',  ( 3.000000000000000000, 0.000000000000000000, 12.69999999999999929 ) ) ;
#189 = AXIS2_PLACEMENT_3D ( 'NONE', #228, #302, #61 ) ;
#190 = APPROVAL_PERSON_ORGANIZATION ( #290, #204, #192 ) ;
#191 = CARTESIAN_POINT ( 'NONE',  ( -1.614212418857619014, 0.000000000000000000, 12.69999999999999929 ) ) ;
#192 = APPROVAL_ROLE ( '' ) ;
#193 = VERTEX_POINT ( 'NONE', #18 ) ;
#194 = AXIS2_PLACEMENT_3D ( 'NONE', #114, #169, #120 ) ;
#195 = DIRECTION ( 'NONE',  ( 0.000000000000000000, 0.000000000000000000, 1.000000000000000000 ) ) ;
#196 = APPROVAL ( #2, 'UNSPECIFIED' ) ;
#197 = CARTESIAN_POINT ( 'NONE',  ( 2.999999999999999112, 12.69999999999999929, 0.000000000000000000 ) ) ;
#198 = AXIS2_PLACEMENT_3D ( 'NONE', #27, #264, #136 ) ;
#199 = CYLINDRICAL_SURFACE ( 'NONE', #93, 12.69999999999999929 ) ;
#200 = CIRCLE ( 'NONE', #59, 10.00000000000000000 ) ;
#201 = CARTESIAN_POINT ( 'NONE',  ( 3.000000000000000000, 1.555301434917138433E-15, -12.69999999999999929 ) ) ;
#202 = PRODUCT ( 'Q-OZHWP-R2-20-355-M', 'Q-OZHWP-R2-20-355-M', '', ( #96 ) ) ;
#203 = DIRECTION ( 'NONE',  ( -1.000000000000000000, -0.000000000000000000, -0.000000000000000000 ) ) ;
#204 = APPROVAL ( #313, 'UNSPECIFIED' ) ;
#205 = SECURITY_CLASSIFICATION_LEVEL ( 'unclassified' ) ;
#206 = DIRECTION ( 'NONE',  ( 0.000000000000000000, 0.000000000000000000, -1.000000000000000000 ) ) ;
#207 = DATE_AND_TIME ( #332, #78 ) ;
#208 = EDGE_LOOP ( 'NONE', ( #152, #184 ) ) ;
#209 = LOCAL_TIME ( 17, 16, 20.00000000000000000, #111 ) ;
#210 = AXIS2_PLACEMENT_3D ( 'NONE', #230, #331, #206 ) ;
#211 = EDGE_LOOP ( 'NONE', ( #307, #178, #52, #285 ) ) ;
#212 = DIRECTION ( 'NONE',  ( 0.000000000000000000, 0.000000000000000000, 1.000000000000000000 ) ) ;
#213 = APPROVAL_DATE_TIME ( #312, #196 ) ;
#214 = EDGE_LOOP ( 'NONE', ( #180, #186 ) ) ;
#215 = CARTESIAN_POINT ( 'NONE',  ( -1.614212418857619014, 1.224646799147353256E-15, -10.00000000000000000 ) ) ;
#216 = COORDINATED_UNIVERSAL_TIME_OFFSET ( 8, 0, .AHEAD. ) ;
#217 = CIRCLE ( 'NONE', #55, 12.69999999999999929 ) ;
#218 = CC_DESIGN_APPROVAL ( #87, ( #142 ) ) ;
#219 = AXIS2_PLACEMENT_3D ( 'NONE', #197, #291, #119 ) ;
#220 = CARTESIAN_POINT ( 'NONE',  ( -2.500000000000000444, 0.000000000000000000, 0.000000000000000000 ) ) ;
#221 = VERTEX_POINT ( 'NONE', #201 ) ;
#222 = LINE ( 'NONE', #320, #255 ) ;
#223 = ADVANCED_FACE ( 'NONE', ( #300 ), #271, .F. ) ;
#224 = DIRECTION ( 'NONE',  ( -1.000000000000000000, -0.000000000000000000, -0.000000000000000000 ) ) ;
#225 = DIRECTION ( 'NONE',  ( 1.000000000000000000, 0.000000000000000000, 0.000000000000000000 ) ) ;
#226 = EDGE_CURVE ( 'NONE', #193, #183, #217, .T. ) ;
#227 = CIRCLE ( 'NONE', #113, 12.69999999999999929 ) ;
#228 = CARTESIAN_POINT ( 'NONE',  ( -1.614212418857619014, 0.000000000000000000, 0.000000000000000000 ) ) ;
#229 = CIRCLE ( 'NONE', #210, 10.00000000000000000 ) ;
#230 = CARTESIAN_POINT ( 'NONE',  ( -2.500000000000000444, 0.000000000000000000, 0.000000000000000000 ) ) ;
#231 = CALENDAR_DATE ( 2020, 22, 12 ) ;
#232 = EDGE_LOOP ( 'NONE', ( #310, #26, #109, #46 ) ) ;
#233 = CARTESIAN_POINT ( 'NONE',  ( 0.000000000000000000, 0.000000000000000000, 0.000000000000000000 ) ) ;
#234 = EDGE_LOOP ( 'NONE', ( #154, #258, #6, #280 ) ) ;
#235 = PERSON_AND_ORGANIZATION ( #12, #299 ) ;
#236 = VECTOR ( 'NONE', #224, 1000.000000000000000 ) ;
#237 = AXIS2_PLACEMENT_3D ( 'NONE', #220, #171, #168 ) ;
#238 = VERTEX_POINT ( 'NONE', #110 ) ;
#239 = VERTEX_POINT ( 'NONE', #188 ) ;
#240 = LINE ( 'NONE', #4, #43 ) ;
#241 = PERSON_AND_ORGANIZATION ( #12, #299 ) ;
#242 = DIRECTION ( 'NONE',  ( 0.000000000000000000, 0.000000000000000000, -1.000000000000000000 ) ) ;
#243 = PLANE ( 'NONE',  #174 ) ;
#244 = DIRECTION ( 'NONE',  ( -1.000000000000000000, -0.000000000000000000, -0.000000000000000000 ) ) ;
#245 = DIRECTION ( 'NONE',  ( -0.000000000000000000, 0.000000000000000000, 1.000000000000000000 ) ) ;
#246 = EDGE_CURVE ( 'NONE', #238, #47, #138, .T. ) ;
#247 = FACE_BOUND ( 'NONE', #214, .T. ) ;
#248 = VECTOR ( 'NONE', #129, 1000.000000000000000 ) ;
#249 = DIRECTION ( 'NONE',  ( -1.000000000000000000, -0.000000000000000000, -0.000000000000000000 ) ) ;
#250 = CIRCLE ( 'NONE', #237, 10.00000000000000000 ) ;
#251 = EDGE_CURVE ( 'NONE', #239, #221, #227, .T. ) ;
#252 = DIRECTION ( 'NONE',  ( -1.000000000000000000, -0.000000000000000000, -0.000000000000000000 ) ) ;
#253 = ORIENTED_EDGE ( 'NONE', *, *, #91, .T. ) ;
#254 = CIRCLE ( 'NONE', #198, 10.00000000000000000 ) ;
#255 = VECTOR ( 'NONE', #88, 1000.000000000000000 ) ;
#256 = PERSON_AND_ORGANIZATION ( #12, #299 ) ;
#257 = EDGE_LOOP ( 'NONE', ( #318, #158 ) ) ;
#258 = ORIENTED_EDGE ( 'NONE', *, *, #246, .T. ) ;
#259 = CC_DESIGN_DATE_AND_TIME_ASSIGNMENT ( #305, #76, ( #142 ) ) ;
#260 = APPLICATION_PROTOCOL_DEFINITION ( 'international standard', 'config_control_design', 1994, #104 ) ;
#261 = DIRECTION ( 'NONE',  ( 0.000000000000000000, 0.000000000000000000, 1.000000000000000000 ) ) ;
#262 = APPROVAL_PERSON_ORGANIZATION ( #235, #196, #275 ) ;
#263 = ORIENTED_EDGE ( 'NONE', *, *, #321, .F. ) ;
#264 = DIRECTION ( 'NONE',  ( -1.000000000000000000, -0.000000000000000000, -0.000000000000000000 ) ) ;
#265 = EDGE_CURVE ( 'NONE', #221, #239, #315, .T. ) ;
#266 = APPROVAL_DATE_TIME ( #166, #204 ) ;
#267 = FACE_OUTER_BOUND ( 'NONE', #211, .T. ) ;
#268 = SECURITY_CLASSIFICATION ( '', '', #205 ) ;
#269 = FACE_OUTER_BOUND ( 'NONE', #208, .T. ) ;
#270 = DIRECTION ( 'NONE',  ( -1.000000000000000000, -0.000000000000000000, -0.000000000000000000 ) ) ;
#271 = CYLINDRICAL_SURFACE ( 'NONE', #189, 10.00000000000000000 ) ;
#272 = DIRECTION ( 'NONE',  ( 0.000000000000000000, 0.000000000000000000, 1.000000000000000000 ) ) ;
#273 = FACE_OUTER_BOUND ( 'NONE', #257, .T. ) ;
#274 = ORIENTED_EDGE ( 'NONE', *, *, #8, .F. ) ;
#275 = APPROVAL_ROLE ( '' ) ;
#276 = ADVANCED_FACE ( 'NONE', ( #185 ), #163, .F. ) ;
#277 = ORIENTED_EDGE ( 'NONE', *, *, #251, .T. ) ;
#278 = CIRCLE ( 'NONE', #36, 10.00000000000000000 ) ;
#279 =( LENGTH_UNIT ( ) NAMED_UNIT ( * ) SI_UNIT ( .MILLI., .METRE. ) );
#280 = ORIENTED_EDGE ( 'NONE', *, *, #102, .F. ) ;
#281 = CC_DESIGN_PERSON_AND_ORGANIZATION_ASSIGNMENT ( #256, #22, ( #268 ) ) ;
#282 = PERSON_AND_ORGANIZATION_ROLE ( 'design_owner' ) ;
#283 = PRODUCT_DEFINITION_SHAPE ( 'NONE', 'NONE',  #142 ) ;
#284 = DIRECTION ( 'NONE',  ( -1.000000000000000000, -0.000000000000000000, -0.000000000000000000 ) ) ;
#285 = ORIENTED_EDGE ( 'NONE', *, *, #146, .F. ) ;
#286 = EDGE_LOOP ( 'NONE', ( #274, #105 ) ) ;
#287 = CARTESIAN_POINT ( 'NONE',  ( 3.000000000000000000, 0.000000000000000000, 0.000000000000000000 ) ) ;
#288 = AXIS2_PLACEMENT_3D ( 'NONE', #45, #66, #122 ) ;
#289 = EDGE_CURVE ( 'NONE', #132, #47, #254, .T. ) ;
#290 = PERSON_AND_ORGANIZATION ( #12, #299 ) ;
#291 = DIRECTION ( 'NONE',  ( -1.000000000000000000, 0.000000000000000000, -0.000000000000000000 ) ) ;
#292 = FACE_OUTER_BOUND ( 'NONE', #161, .T. ) ;
#293 = CC_DESIGN_PERSON_AND_ORGANIZATION_ASSIGNMENT ( #42, #334, ( #142 ) ) ;
#294 = CARTESIAN_POINT ( 'NONE',  ( 2.999999999999999112, 1.224646799147353256E-15, -10.00000000000000000 ) ) ;
#295 = CYLINDRICAL_SURFACE ( 'NONE', #44, 12.69999999999999929 ) ;
#296 = EDGE_CURVE ( 'NONE', #80, #69, #240, .T. ) ;
#297 = PRODUCT_DEFINITION_FORMATION_WITH_SPECIFIED_SOURCE ( 'ANY', '', #202, .NOT_KNOWN. ) ;
#298 = ADVANCED_FACE ( 'NONE', ( #19 ), #330, .F. ) ;
#299 = ORGANIZATION ( 'UNSPECIFIED', 'UNSPECIFIED', '' ) ;
#300 = FACE_OUTER_BOUND ( 'NONE', #51, .T. ) ;
#301 = DIRECTION ( 'NONE',  ( 0.000000000000000000, 0.000000000000000000, 1.000000000000000000 ) ) ;
#302 = DIRECTION ( 'NONE',  ( -1.000000000000000000, -0.000000000000000000, -0.000000000000000000 ) ) ;
#303 = PERSON_AND_ORGANIZATION ( #12, #299 ) ;
#304 = CARTESIAN_POINT ( 'NONE',  ( -2.500000000000000444, 0.000000000000000000, 10.00000000000000000 ) ) ;
#305 = DATE_AND_TIME ( #157, #139 ) ;
#306 = CC_DESIGN_APPROVAL ( #204, ( #268 ) ) ;
#307 = ORIENTED_EDGE ( 'NONE', *, *, #21, .F. ) ;
#308 = DIRECTION ( 'NONE',  ( -1.000000000000000000, -0.000000000000000000, -0.000000000000000000 ) ) ;
#309 = DIRECTION ( 'NONE',  ( 1.000000000000000000, 0.000000000000000000, 0.000000000000000000 ) ) ;
#310 = ORIENTED_EDGE ( 'NONE', *, *, #296, .F. ) ;
#311 = ORIENTED_EDGE ( 'NONE', *, *, #89, .F. ) ;
#312 = DATE_AND_TIME ( #179, #144 ) ;
#313 = APPROVAL_STATUS ( 'not_yet_approved' ) ;
#314 = ORIENTED_EDGE ( 'NONE', *, *, #102, .T. ) ;
#315 = CIRCLE ( 'NONE', #103, 12.69999999999999929 ) ;
#316 = AXIS2_PLACEMENT_3D ( 'NONE', #164, #249, #195 ) ;
#317 = FACE_OUTER_BOUND ( 'NONE', #232, .T. ) ;
#318 = ORIENTED_EDGE ( 'NONE', *, *, #226, .T. ) ;
#319 = FACE_OUTER_BOUND ( 'NONE', #108, .T. ) ;
#320 = CARTESIAN_POINT ( 'NONE',  ( -1.614212418857619014, 0.000000000000000000, 10.00000000000000000 ) ) ;
#321 = EDGE_CURVE ( 'NONE', #3, #29, #23, .T. ) ;
#322 = CC_DESIGN_APPROVAL ( #196, ( #297 ) ) ;
#323 = PRODUCT_RELATED_PRODUCT_CATEGORY ( 'detail', '', ( #202 ) ) ;
#324 = FACE_OUTER_BOUND ( 'NONE', #156, .T. ) ;
#325 = CARTESIAN_POINT ( 'NONE',  ( -3.000000000000000000, 0.000000000000000000, 0.000000000000000000 ) ) ;
#326 = CARTESIAN_POINT ( 'NONE',  ( 2.500000000000000888, 0.000000000000000000, 0.000000000000000000 ) ) ;
#327 = CC_DESIGN_SECURITY_CLASSIFICATION ( #268, ( #297 ) ) ;
#328 = CARTESIAN_POINT ( 'NONE',  ( -3.000000000000000000, 10.00000000000000000, 0.000000000000000000 ) ) ;
#329 = ADVANCED_FACE ( 'NONE', ( #324 ), #199, .T. ) ;
#330 = CYLINDRICAL_SURFACE ( 'NONE', #288, 10.00000000000000000 ) ;
#331 = DIRECTION ( 'NONE',  ( 1.000000000000000000, 0.000000000000000000, 0.000000000000000000 ) ) ;
#332 = CALENDAR_DATE ( 2020, 22, 12 ) ;
#333 = ORIENTED_EDGE ( 'NONE', *, *, #246, .F. ) ;
#334 = PERSON_AND_ORGANIZATION_ROLE ( 'creator' ) ;
#335 = EDGE_CURVE ( 'NONE', #29, #69, #278, .T. ) ;
ENDSEC;
END-ISO-10303-21;
